Duyuru

Collapse
No announcement yet.

Blues gamları

Collapse
X
 
  • Filtre
  • Saat
  • Göster
Tümünü Sil
new posts

  • Blues gamları

    arkadaşlar birkaç gündür blues'a merak saldım Bana kaynak gösterebilirmisiniz acaba.Gamların olduğu parçalar olur gitar pro olur farketmez.
    Son güncelleyen Johnson_86; 19-09-2009, 16:55.

  • #2
    Johnson_86 isimli üyeden alıntı Mesajı göster
    arkadaşlar birkaç gündür blues'a merak saldım Bana kaynak gösterebilirmisiniz acaba.Gamların olduğu parçalar olur gitar pro olur farketmez.
    merak salmışsın, iyi yapmışsın Johnson eğer guitar pro jan 2006 songbook varsa elinde oradan "guitar player licks and lessons" a bir bak derim, bir çok blues gitaristinin teknikleri orada mevcut... ayrıca "blues acoustic guitar" ve "blues rythmes" şeklinde klasörler de olması lazım

    gamlar için de yine guitar pro ya bakmalısın bence, programda "scales list" diye bir bölüm var. ek olarak eğer istersen herhangi bir eartraining programı da netten çok rahat bulabilirsin, içlerinde birçok gam ve kalıp bulunur

    Yorum


    • #3
      guitar pro 5 var bende senin dediğin hangisi?

      Yorum


      • #4
        Bende de GP 5 var, ama songbook programdan bağımsız sanırım..

        buradan indirebilirsin;

        http://rapidshare.com/files/93326773/msg.part1.rar
        http://rapidshare.com/files/93327116/msg.part2.rar

        Yorum


        • #5
          Bluse gamı pentatonic dir. Aşağıdaki bu gamın pzisyonlaından biridir ana pozisyonu denebilir. Bu gamı kullanarak blues soloları atabilirsiniz.

          e|-----------------------------------------------------------------------5-----8-------|
          B|----------------------------------------------------------5-----8--------------------|
          G|----------------------------------------------5-----7--------------------------------|
          D|--------------------------------5-----7----------------------------------------------|
          A|-------------------5-----7-----------------------------------------------------------|
          E|-----5-----8-------------------------------------------------------------------------|

          Yorum


          • #6
            BLUES DİZİLER

            Blues diziler, Minör Pentatonik dizilere bir nota eklenmesiyle, 6 sesten oluşurlar. Minör pentatonik diziye eklenen bu seslere "Blue notes" deniyor. Blue Note, Tonik referans alındığında eksik 5’li aralığa (diminished 5th) sahiptir. Eksik 5’li aralığı; aralarında 5 basamak bulunan ve 3 ton büyüklüğündeki aralıktır.

            http://www.mygitar.com/forum/showthread.php?t=21485 den alıntıdır...

            Yorum


            • #7
              buradan GP egzersizleri bulabilirsin;
              http://www.gprotab.net/browse_tabs.p...st_id=384#3269
              http://www.blueslessons.net/
              ayrıca temel blues patternleri şöyledir;

              |-------------------------------------5--8--|
              |-------------------------------5--8--------|
              |----------------------5--7--8--------------|
              |----------------5--7-----------------------|
              |-------5--6--7-----------------------------|
              |--5--8-------------------------------------|


              |------------------------------------------8--10--|
              |-----------------------------------8--10---------|
              |--------------------------7--8--9----------------|
              |-------------------7--10-------------------------|
              |------------7--10--------------------------------|
              |-8--10--11---------------------------------------|


              |-------------------------------------------------10--11--12--|
              |-----------------------------------------10--13--------------|
              |----------------------------------9--12----------------------|
              |----------------------10--12--13-----------------------------|
              |--------------10--12-----------------------------------------|
              |--10--11--12-------------------------------------------------|



              |------------------------------------------------------11--12--15--|
              |------------------------------------------13--15--16--------------|
              |----------------------------------12--14--------------------------|
              |----------------------12--13--14----------------------------------|
              |--------------12--15----------------------------------------------|
              |--11--12--15------------------------------------------------------|



              |--------------------------------------------------15--17--|
              |--------------------------------------15--16--17----------|
              |------------------------------14--17----------------------|
              |----------------------14--17------------------------------|
              |----------15--17--18--------------------------------------|
              |--15--17--------------------------------------------------|

              Yorum


              • #8
                BarisBerk'in yazdığına bir düzeltme; Tabını verdiğin dizi "La Minör Pentatonik" dizidir. Blues dizisi diyebilmek için tonikten itibaren eskik 5'li eklenmelidir. Yani ; A telinde 6. perde, G telinde 6. perde eklenmelidir.

                Absolute Janis'in verdiği ilk örnek patern ile karşılaştırırsanız farkı görebilirsiniz. Absolute Janis'in verdiği tab gerçekten Blues dizi tanımına uygun

                Herkese Kolay Gelsin

                Yorum


                • #9
                  sağolun arkadaşlar

                  Yorum


                  • #10
                    Haklısın Prohibit, dikkatimi çekmemişti daha önce
                    Unutmayalım; "petatonik çalmak blues çalmak değildir" olamaz da.. eksik kalır, ağlayamaz gitar, hıçkırır sadece..

                    Yorum


                    • #11
                      peki Absolute Janis in vermiş oldugu diger patternlerin isimleri nelerdir?

                      Yorum


                      • #12
                        sevgili bora_man hepsi blues gamının üzerindeki varyasyonlar, örneğin ilk pattern A root olarak başlıyor ve tam bir tritone a (blue note) sahip, ikincisi de esas olarak A root olarak başlaması gerekirken minor 3rd ile C den yani yarıdan başlayıp ikinci basamaktan sonra tritone u tamamlıyor... Bir diğeri direkt minor 2nd ile D den başlıyor ve yine ikinci basamaktan sonra tritone u tamamlıyor
                        Son güncelleyen Absolute Janis; 19-09-2009, 22:26.

                        Yorum


                        • #13
                          Evet bora_man, özet olarak hepside La Blues

                          Yorum


                          • #14
                            Absolute Janis,Prohibit ikinizede çok teşekkür ederim.

                            Yorum


                            • #15
                              önemli değil

                              Yorum

                              Unconfigured Ad Widget

                              Collapse
                              Initializing Tabs & loading Content...
                              Initializing Tabs & loading Content...

                              Trending

                              Collapse

                              Bu kriterlere uygun sonuç bulunamadı.

                              Pitbull Strings Gold Series Gitar Telleri

                              Collapse

                              Çalışıyor...
                              X