Duyuru

Collapse
No announcement yet.

Blues gamları

Collapse
X
 
  • Filtre
  • Saat
  • Göster
Tümünü Sil
new posts

  • Halilozz
    replied
    http://jguitar.com/scale?root=A&scal...e&notes=sharps bu linkten istediğin major, minor, pentatonic dorian vs her türlü gamı listeleyebilirsin
    çaldığın şarkının tonuna göre uygun gamı seçip basit lick kalıplarıyla solo atabilirsin

    Yorum bırak:


  • 00GuitaR00
    replied
    Pentatonik bir gamın 3. sesinin dieziyle beraber çalınması
    örn: La-do-re-reDiez-mi-sol-la
    (Pentatonik gam oluşturmak için bi gamın 2. ve 6. sesini çalmıyoruz.)

    Yorum bırak:


  • WildRoseX
    replied
    sağolun...

    Yorum bırak:


  • MrBlues
    replied
    dubidakka isimli üyeden alıntı Mesajı göster
    öncelikle harika bir paylaşım. herkese çok teşekkür ederim. benimde sizlerden bir ricam olacak. bu gamları düzenli olarak çalışabilmek için alıştırma parçaları **** sadece bu gamlardan oluşmuş melodilerin tabları varmı. bu konuda yardımcı olabilirmisiniz.
    1. sayfada var zaten tablar

    Yorum bırak:


  • dubidakka
    replied
    öncelikle harika bir paylaşım. herkese çok teşekkür ederim. benimde sizlerden bir ricam olacak. bu gamları düzenli olarak çalışabilmek için alıştırma parçaları **** sadece bu gamlardan oluşmuş melodilerin tabları varmı. bu konuda yardımcı olabilirmisiniz.

    Yorum bırak:


  • Absolute Janis
    replied
    önemli değil

    Yorum bırak:


  • bora_man
    replied
    Absolute Janis,Prohibit ikinizede çok teşekkür ederim.

    Yorum bırak:


  • Prohibit
    replied
    Evet bora_man, özet olarak hepside La Blues

    Yorum bırak:


  • Absolute Janis
    replied
    sevgili bora_man hepsi blues gamının üzerindeki varyasyonlar, örneğin ilk pattern A root olarak başlıyor ve tam bir tritone a (blue note) sahip, ikincisi de esas olarak A root olarak başlaması gerekirken minor 3rd ile C den yani yarıdan başlayıp ikinci basamaktan sonra tritone u tamamlıyor... Bir diğeri direkt minor 2nd ile D den başlıyor ve yine ikinci basamaktan sonra tritone u tamamlıyor
    Son güncelleyen Absolute Janis; 19-09-2009, 22:26.

    Yorum bırak:


  • bora_man
    replied
    peki Absolute Janis in vermiş oldugu diger patternlerin isimleri nelerdir?

    Yorum bırak:


  • Absolute Janis
    replied
    Haklısın Prohibit, dikkatimi çekmemişti daha önce
    Unutmayalım; "petatonik çalmak blues çalmak değildir" olamaz da.. eksik kalır, ağlayamaz gitar, hıçkırır sadece..

    Yorum bırak:


  • Johnson_86
    replied
    sağolun arkadaşlar

    Yorum bırak:


  • Prohibit
    replied
    BarisBerk'in yazdığına bir düzeltme; Tabını verdiğin dizi "La Minör Pentatonik" dizidir. Blues dizisi diyebilmek için tonikten itibaren eskik 5'li eklenmelidir. Yani ; A telinde 6. perde, G telinde 6. perde eklenmelidir.

    Absolute Janis'in verdiği ilk örnek patern ile karşılaştırırsanız farkı görebilirsiniz. Absolute Janis'in verdiği tab gerçekten Blues dizi tanımına uygun

    Herkese Kolay Gelsin

    Yorum bırak:


  • Absolute Janis
    replied
    buradan GP egzersizleri bulabilirsin;
    http://www.gprotab.net/browse_tabs.p...st_id=384#3269
    http://www.blueslessons.net/
    ayrıca temel blues patternleri şöyledir;

    |-------------------------------------5--8--|
    |-------------------------------5--8--------|
    |----------------------5--7--8--------------|
    |----------------5--7-----------------------|
    |-------5--6--7-----------------------------|
    |--5--8-------------------------------------|


    |------------------------------------------8--10--|
    |-----------------------------------8--10---------|
    |--------------------------7--8--9----------------|
    |-------------------7--10-------------------------|
    |------------7--10--------------------------------|
    |-8--10--11---------------------------------------|


    |-------------------------------------------------10--11--12--|
    |-----------------------------------------10--13--------------|
    |----------------------------------9--12----------------------|
    |----------------------10--12--13-----------------------------|
    |--------------10--12-----------------------------------------|
    |--10--11--12-------------------------------------------------|



    |------------------------------------------------------11--12--15--|
    |------------------------------------------13--15--16--------------|
    |----------------------------------12--14--------------------------|
    |----------------------12--13--14----------------------------------|
    |--------------12--15----------------------------------------------|
    |--11--12--15------------------------------------------------------|



    |--------------------------------------------------15--17--|
    |--------------------------------------15--16--17----------|
    |------------------------------14--17----------------------|
    |----------------------14--17------------------------------|
    |----------15--17--18--------------------------------------|
    |--15--17--------------------------------------------------|

    Yorum bırak:


  • Prohibit
    replied
    BLUES DİZİLER

    Blues diziler, Minör Pentatonik dizilere bir nota eklenmesiyle, 6 sesten oluşurlar. Minör pentatonik diziye eklenen bu seslere "Blue notes" deniyor. Blue Note, Tonik referans alındığında eksik 5’li aralığa (diminished 5th) sahiptir. Eksik 5’li aralığı; aralarında 5 basamak bulunan ve 3 ton büyüklüğündeki aralıktır.

    http://www.mygitar.com/forum/showthread.php?t=21485 den alıntıdır...

    Yorum bırak:

Unconfigured Ad Widget

Collapse
Initializing Tabs & loading Content...
Initializing Tabs & loading Content...

Trending

Collapse

Bu kriterlere uygun sonuç bulunamadı.

Pitbull Strings Gold Series Gitar Telleri

Collapse

Çalışıyor...
X