Duyuru

Collapse
No announcement yet.

Economy Picking ve Alternate Picking

Collapse
Bu sabit bir konudur.
X
X
 
  • Filtre
  • Saat
  • Göster
Tümünü Sil
new posts

  • yahu aynı şey bende de var. si teline üstten aşağı doğru vuruş yapıp ince mi'ye geçeceğim zaman mi'ye de üstten aşağı doğru vuruyorum. alternate picking'in olayı zaten penanın olduğu yerden doğru penalamak olduğuna göre, bu yaptığımın bir zararı olduğunu sanmıyorum, mi'ye alttan vurmak o durumda saçma, hatta hızlı sololarda zor olacaktır ki zaten alternate picking'i benim gibi kullanan birçok gitaristin olduğuna da eminim.

    Yorum


    • arkadaşlar Master Of Puppets dan örnek vererek soracagım

      e |----------------|---------------|---------------|----------------|
      B |----------------|---------------|---------------|----------------|
      G |9---------------|7---6---5------|---------------|.---------------|
      D |9---------------|7---6---5------|---------------|.---------------|
      A |7---------------|5---4---3------|---------------|-----7-----6----|
      E |0---------------|---------------|---------------|-0-0---0-0---0-0|



      D Db C N.C.(Em) Play 4 times
      PM.............................
      e |-----------------|---------------|-----------------|
      B |7---6---5--------|---------------|-----------------|
      G |7---6---5--------|---------------|----------------.|
      D |7---6---5--------|---------------|----------------.|
      A |5---4---3--------|---------------|-----------------|
      E |-----------------|0-0-7-0-0-6-0-0|5-0-4-0-3-0-2-0--|

      bu şarkıyı mutlaka çalanınız vardır su kısımdaki 7 ve 6 ya alternate picking tekniğine göre alttan mı vurmamız gerekiyor bana burdaki notaların nasıl vurulacağını anlatır mısınız?
      -----7-----6----|
      E ----0-0---0-0---0-

      Yorum


      • Arkadaşlar aşağıdaki resmi internette pena nasıl telere vurulacak referans olarak verilmiş. Siyah çizgiyi tel kabul edin pena o şekilde vurulacak demiş. Fakat bende ayakta çaldığımda kırmızı çizgiyi tel düşünün bunun gibi oluyor. Yani ucu biraz sağdan geliyor tele. Bu normal midir? Siyah çizgide ki gibi olması için bileği **** **** bükmek gerekiyor yani Marty Friendman gibi tutmak lazım heralde. **** bana öyle geliyor bilemiyor tecrübeli arkadaşlar ayakta çalarken bir kontrol edebilirler mi.

        http://g1206.hizliresim.com/y/y/91cmw.gif

        Gitarda yeni değilim 2.5 yıl ara vermiştim şimdide pena tutuşumu işaret parmagım tellere surctugunden dolayı değiştirdim. Ayaktada çalmıyordum ne zamandır. Şu referans resmi görünce dikkatimi çekti bir sorayım dedim. Teşekkürler.

        Yorum


        • Creeping_Death isimli üyeden alıntı Mesajı göster
          arkadaşlar Master Of Puppets dan örnek vererek soracagım

          e |----------------|---------------|---------------|----------------|
          B |----------------|---------------|---------------|----------------|
          G |9---------------|7---6---5------|---------------|.---------------|
          D |9---------------|7---6---5------|---------------|.---------------|
          A |7---------------|5---4---3------|---------------|-----7-----6----|
          E |0---------------|---------------|---------------|-0-0---0-0---0-0|



          D Db C N.C.(Em) Play 4 times
          PM.............................
          e |-----------------|---------------|-----------------|
          B |7---6---5--------|---------------|-----------------|
          G |7---6---5--------|---------------|----------------.|
          D |7---6---5--------|---------------|----------------.|
          A |5---4---3--------|---------------|-----------------|
          E |-----------------|0-0-7-0-0-6-0-0|5-0-4-0-3-0-2-0--|

          bu şarkıyı mutlaka çalanınız vardır su kısımdaki 7 ve 6 ya alternate picking tekniğine göre alttan mı vurmamız gerekiyor bana burdaki notaların nasıl vurulacağını anlatır mısınız?
          -----7-----6----|
          E ----0-0---0-0---0-
          Metallica parçaları genelde standartın dışında sürekli downpicking le çalınır yani sürekli aşağıdan yukarıya.. yeni başlıyorsan bileğini bayağı bi zorlayabilir.. şu şekilde çalacaksın yani;

          http://www.youtube.com/watch?v=vLPfe_I_i_c

          edit: aşağıdan yukarıya nedir ya downpicking yazmışım bir de üste
          Yukardan aşağıya doğru olacak dostum.. teşekkürler gitar mı o.
          Son güncelleyen Kirk-Lee; 13-07-2013, 02:29.

          Yorum


          • master of puppets ın özelliği zaten tamamının aşağı pena vuruşu ile çalınmasıdır

            Yorum

            Unconfigured Ad Widget

            Collapse
            Initializing Tabs & loading Content...
            Initializing Tabs & loading Content...

            Trending

            Collapse

            Bu kriterlere uygun sonuç bulunamadı.

            Pitbull Strings Gold Series Gitar Telleri

            Collapse

            Çalışıyor...
            X