Duyuru

Collapse
No announcement yet.

İnternet Tablarını okumak

Collapse
Bu sabit bir konudur.
X
X
  • Filtre
  • Saat
  • Göster
Tümünü Sil
new posts

  • İnternet Tablarını okumak

    <hr>Bunun gibi : ((

    B:----12-10-9-8-10-9-10-10-9-10-10-10h12-8h10—6-8---------
    G:---------------------7----------------------------------


    B:--------------8-10-11-10-8-10 11-10-9-10-11\13-11-10-11-10-11h10----6-8-6-----
    G:----8-10-11-------------------------------------------------------------------


    tablar ne anlama geliyor. VE
    Ben solo gitar icin parcaların notalarını nerden hangi kitaptan siteden vs bulabilirim?


    dedim ama herkes aynı soruyu soruyor diye bu form kapatıldı ama ben butun formu gezdim ama bu soruların cevabını bulamadım.Hangi formlarda oldugunu ya da bu soruların cevabını alabilirmiyim???
    <hr>

  • #2
    <pre id=code>E----------------------------------------------------------------
    B----------------------------------------------------------------
    G----------------------------------------------------------------
    D----------------------------------------------------------------
    A----------------------------------------------------------------
    E----------------------------------------------------------------

    bu internet tablarının genel boş yazılımıdır... dikkat ederseniz ters gibi görünecektir
    ama böyle olmasının sebebi tutuşa göre hazırlanmış olmasıdır...

    E----------------------------------------------------------------
    B----------------------------------------------------------------
    G----------------------------------------------------------------
    D------------------------------------0--1--2--3--4---------------
    A----------------------0--1--2--3--4-----------------------------
    E---0--1--2--3--4------------------------------------------------

    gibi bir örnek verelim... buradaki sayılar o telin hangi perdesine bastığımızı
    göstermek içindir... yani 0 olunca boş, 1 olunca birinci perde, 2 olunca ikinci perde gibi...

    aynı zamanda şöyle bir örnekle karşılaşırsak :

    E----------------------------------------------------------------
    B----------------------------------------------------------------
    G----------------------------------------------------------------
    D----------------------------------------------------------------
    A---3--5---------------------------------------------------------
    E---1--3---------------------------------------------------------

    üstüste olan sayılar olduğunu görünce ne yapmamız gerekiyor??
    bunu şöyle anlatayım üstüste olan sayılar aynı anda basılması gerektiğini gösterir
    yani e telinin 1. perdesi ile A telinin 3. perdesine birlikte basacaksınız...

    E-----0-----------------------------------------------------------
    B---0--0---------------------------------------------------------
    G--0----0--------------------------------------------------------
    D----------------------------------------------------------------
    A----------------------------------------------------------------
    E-0-------0-------------------------------------------------------

    böyle bir durumda ise soldan sağa doğru okuyarak her teli ayrı ayrı çalmak gerekli.

    şimdi gelelim tablarda gördüğünüz çeşitli harf ve sembollere ve ne anlama geldiklerine :

    e:---------------------------------------------------------------------------|
    B:----8--8--7---7---------------------------------8--8--7---7----------------|
    G:-7---------------7~~~---------7/9--9\7~~~----7---------------7~~~------9~~~|
    D:-----------------------7/9\7--------------------------------------7/9------|
    A:---------------------------------------------------------------------------|
    E:---------------------------------------------------------------------------|

    burada görülen semboller ne anlamda??

    7~~~ : yedinci perdede vibrato
    7/9\7: 7 den 9 a 9 dan 7 ye slide
    gibi...

    çoğu tabın başında tabda kullanılan harf ve sembollerin anlamı zaten belirtilmiştir
    bu yüzden tabı tam anlamıyla çalabilmek için bu tekniklerin iyi bir şekilde bilinmesi
    gerekir...

    örneğin :

    h = hammer on a.h = Artificial Harmonic
    p = pull off s.h = Semi Harmonic
    / = slide up w/bar = use tremolo bar
    \ = slide down

    ^=legato
    9(11)=bend note to pitch in parentheses
    ~=vibrato
    ph=pinch harmonic
    t=tap



    gibi...

    Aynı zamanda tabların başlarında tellerin hangi notalara akort edileceği de gösterilir

    örneğin :

    D tuning (DAdGBe) ....

    Çoğu yeni gitarist için zor gibi görünebilir ama bir kaç tabı okuduktan sonra emin olun
    ki kolay gelecek

    hadi şimdi de bir çalışma verelim bari

    yeni başlayanlar için parmak alıştırmaları : ( kas belleğinizi geliştirmek için )
    (alternate picking ile çalışmak gerekiyor )

    E-------------------------------------------------------------
    B-------------------------------------------------------------
    G-------------------------------------------------------------
    D-------------------------------------------------------------
    A--------------------------------------1-2-1-3-1-4-1-5-1-6-1-7
    E-1-2-1-3-1-4-1-5-1-6-1-7-1-8-1-9-1-10------------------------


    |------------------------------------------1-2-3-4--5-4-3-2----------------
    |----------------------------------1-2-3-4------------------5-4-3-2--------
    |--------------------------1-2-3-4----------------------------------5-4-3-2
    |------------------1-2-3-4-------------------------------------------------vs...
    |----------1-2-3-4---------------------------------------------------------
    |--1-2-3-4-----------------------------------------------------------------


    |-------------------------------1-2-3--4-3-2-------------------------------
    |-------------------------1-2-3--------------4-3-2-vs.---------------------
    |-------------------1-2-3--------------------------------------------------
    |-------------1-2-3--------------------------------------------------------
    |-------1-2-3--------------------------------------------------------------
    |-1-2-3--------------------------------------------------------------------


    |----------------------1-3--4-2--------------------------------------------
    |------------------1-3----------4-2----------------------------------------
    |--------------1-3------------------4-2------------------------------------
    |----------1-3---------------------------4-2-------------------------------
    |------1-3-----------------------------------4-2-vs...---------------------
    |--1-3---------------------------------------------------------------------


    |--------------------------------------------------------------------------
    |--------------------------------------------------------------------------
    |--------------------------------------------------------------------------
    |--------------------------------------------------------------------------
    |-------------------------------1-2-3-4--5-6-7-8----vs...------------------
    |-1-2-3-4--5-6-7-8--9-10-11-12---------------------------------------------

    bunları kendiniz de çoğaltabilirsiniz....


    GMaj. 1. pozisyon'da çalışma:

    |-------------------------------------------------------------2---3--------
    |----------------------------------------------------3---5--3---5----------
    |------------------------------------2----4--2--5--4---5-------------------
    |---------------------2---4--2--5--4----5----------------------------------
    |--------2---3--2-5-3---5--------------------------------------------------
    |-2-5--3---5---------------------------------------------------------------

    gibi çalışmalarla hem tab okumanızı geliştirebilir hem de gamlara ufak bir başlangıç
    yapmış olursunuz
    aynı zamanda parmaklarınızın gelişimi ve hızlanması için de önemli olacaktır.
    benden şimdilik bu kadar ama yeni eklemeler de yapma

    Yorum


    • #3
      son nokta budur homeyine yapmışsın yapacağını...

      Yorum


      • #4
        Walla home sana ne diyim bilmiyorum Cok saol ***..

        Düzenleyen - kalender_ on 30/06/2003 10:39:51

        Yorum


        • #5
          Hiç önemli değil arkadaşlar yardımım dokunduysa ne mutlu bana

          Yorum


          • #6
            tab'e birşey öyleyemem Üstad Home söylenecekleri söylemiş.ama solo gitar metodu için Speed Mechanix diye bir kitap var onu kullana bilirsin. Ayrıyetten bu kitapta parmak hareketleri,hız çeşitleri, kullanım metodları,tutuşlar,duruşlar filan var.hadi allah zihin açıklığı versin !!!

            Yorum


            • #7
              7/8 bu tür yazilis ne demek oluyor ??

              Yorum


              • #8
                7 den 8 e slide yapacaksın demek 7/8parmak kaydırması yani

                Yorum


                • #9
                  e----------------------7----------------
                  b-0------2--------------------------------
                  g---------------------------------------
                  d---------------------------------------
                  a----------------------7----------------
                  E-1------4--------------------------------
                  ,penayla çalan benim gibi biri bu durumda ne yapacak.bunuda izah edersen sevinirim...

                  Yorum


                  • #10
                    Arkadaşlar daha önce başka bir forumda da bu konu açılmıştı ama yeri gelmişken home'un yazdıklarına küçük bir ekleme yapmak isterim, yukarıda nota sürelerine değinilmemiş.

                    Yukarıdaki gösterime sahip tablar aslında birer ASCII koddur, bunlar bilgisayar programları aracılığıyla midi dosyalarına (*.mid) dönüştürülebilir. İlk compiler larda ve GW Basic gibi programlama dillerinde aynı anda tınlayan (unison=unisound) sesler programlanamıyordu. Çocukluğumda bilgisayarda GW Basic çalışırken (o zamanlar 286 bir tenekem vardı) Basicte sadece melodik pasajlar programlanabiliyordu. Notalar süreleriyle birlikte (aynı anda tınlamamak şartıyla) peşpeşe yazılırdı ve aynen cep telefonu melodileri gibi ancak melodik bir pasaj yazmak mümkündü. Sonraları midi dosyaları ve yukarıdaki ASCII tablar bunun yerini aldı. Böylelikle ünison sesler bilgisayar diline çevrilmeye başlandı.

                    Asıl TAB (tablature) notasyonu farklıdır ve dizekteki gösterime benzer (Guitar Pro tabları gibi). Bunun dışında yukarıdaki tabların süreleri notanın önüne konan çizgi sayısıyla belirlenir (tek çizgi 32lik, iki çizgi 16lık vs..) Bilgisayar nota sürelerini böyle algılar. Yalnızca triplet gibi notaları bu tablarla tanıtamazsınız. Yani bu yazım şeklinin eksikleri var. Bu tabların yazılı anlamda kağıt üstünde kullanımı tamamen daktilasyon kolaylığından kaynaklanır. Dikkat ederseniz notepad ile kolayca yazabilirsiniz. Ancak yazılı olarak kullanılmaya başlandıktan sonra kurallara pek uyulmamış, mesela şimdilerde ölçüsü hiç belli olmayan pek çok ASCII tabla karşılaşmak mümkün. Bu yüzden bunlara pek güvenmeyin derim..

                    Yorum


                    • #11
                      Home of despair, müthiş bir kaynak. Teşekkürler...

                      Yorum


                      • #12
                        brave heart yazdığını yeni okudum afederisin...
                        -------2------------
                        --------------------
                        --------------------
                        --------------------
                        -------4-----------
                        --------------------
                        görüldüğü üzere burda pena kullananların yapması güç görünüyor. bunu yapmanın iki yolu var...
                        ilki ve bana göre en mantıklısı pena kullanmadığın parmaklarını kullanmak ve telleri çekmek...
                        Alternatif yol ise aradaki telleri susturarak tellere vurmak...
                        Ama telleri sustursan bile ses çıkacağını unutma o yüzden ilk dediğimi deneyebilirsin...

                        Yorum


                        • #13
                          -------2------------
                          --------------------
                          --------------------
                          --------------------
                          -------4-----------
                          --------------------

                          Bu partisyonu çalabilmeniz için süper bir pena hakimiyetine ihtiyaç duymanyz gerekmekte arkada?lar.

                          üst tele normal penaly çaly? pozisyonu alyyoruz alt teli ise yüzük parma?ymyz ile çekiyoruz (parçanyn armonizasyonuna göre de?i?ebilir)

                          Saygylar.

                          Yorum


                          • #14
                            aslynda her?ey anlatylmy? ama benim kafama bi?ey takyldy. görülen o ki bir çok tab sa? el gitaristler için yazylmy?tyr. peki solak olanlar bu drumda ne yapacak?? öyle bir site varmy? ya da bunun yolu nedir??

                            Yorum


                            • #15
                              Arkada?lar bende bir soru sormak istiyorum. Yanytlarsanyz sevinirim mesela ?arkyyy çalarken o ?arkynyn akorlaryyla ilgili do?açlama soloyu atabilmek için hangi gamlary kullanabilirim.?imdiden te?ekkürler...

                              Yorum

                              Unconfigured Ad Widget

                              Collapse
                              Initializing Tabs & loading Content...
                              Initializing Tabs & loading Content...

                              Trending

                              Collapse

                              Pitbull Strings Gold Series Gitar Telleri

                              Collapse

                              Çalışıyor...
                              X